Все песни

Все исполнители

Theres More To Life Than This

Автор: Bjork

most of the song is this:
G|------------------|
D|-7-7--------------|
A|-----5-5-6-6-0-0--|
E|------------------|

but near the end it does this a few times:
G|------------------|
D|-7-7--------------|
A|-----5-6-5-6-0-0--|
E|------------------|

and then goes back to the original.

5 - Сайт содержит тексты песен, аккорды, табулатуры #5