Все песни

Все исполнители

So Broken Intro

Автор: Bjork

This isn't complete, but it's the main part of the song.

|-----0------0-----------0------0------|
|-----1------1-----------1------1------|
|--------------------------------------|
|--------------------------------------|
|--0-----0------------0-----0----------|
|----------0---0--0-----------0---0--0-|

|-----2------2-----------2------2------|
|-----4------4-----------4------4------|
|--------------------------------------|
|--------------------------------------|
|--2-----2------------2-----2----------|
|----------2---2--2-----------2---2--2-|

5 - Сайт содержит тексты песен, аккорды, табулатуры #5