Все песни

Все исполнители

So Broken

Автор: Bjork

e|---------------------------------------------------------------------------|
B|-----4-------4-----4-----4--------3-------3------4--------3----------8-----|
G|-----5-------5-----5-----5--------5-------5------5--------5----------7-----|
D|---------------------------------------------------------------------------|
A|---3-----------3------------3-5-------------5-------5-5----------6---------|
E|-------3-3-----------3-3------------5-5------------------------------------|



e|---------------------------------------------------------------------------|
B|--------8-------8--------8-------3--------3------4-------3-----------------|
G|--------7-------7--------7-------5--------5------5-------5-----------------|
D|---------------------------------------------------------------------------|
A|------------6----------------5---------------5------5-5--------------------|
E|---6-6------------6-6---------------5-5------------------------------------|

5 - Сайт содержит тексты песен, аккорды, табулатуры #5