Все песни

Все исполнители

Possibly Maybe

Автор: Bjork

main riff
e:-------------
B:-------------
G:-------------
D:---9-8-------
A:-------8-9---
E:-7-----------

"Possibly Maybe...)
e:-----|
B:-----|
G:-----|
D:-----|
A:-----|
E:-9---|

End Verse:
e:------------------|
B:------------------|
G:------------------|
D:------------------|
A:------------------|
E:-9---9-9---9--9-9-|

5 - Сайт содержит тексты песен, аккорды, табулатуры #5