Все песни

Все исполнители

Its Oh So Quiet

Автор: Bjork

intro(some type of woodwind transcribed for guitar)-
E------------------------------------------------------|
B------------------------------------------------------|
G-----------------15---------------15------------------|
D--13----------13----12---------12-----10--------------|
A-----------13--------------13---------------11--13----|
E------------------------------------------------------|

After playing this once, Bjork says "Shhh!" at which point you'll
want to play it again. After the second time comes the verse which goes
something like this:

"quiet...shhh...shhhhh. It's oh so still,etc."
E------------------------------------------------------|
B------------------------------------------------------|
G------------------------------------------------------|
D----13-----------13---17---15----17-------------------|
A------------13----------------------------------------|
E------------------------------------------------------|
"You're all..."
E------------------------------------------------------|
B------------------------------------------------------|
G------------------------------------------------------|
D----16--15--------12---15---14---------15-------------|
A--------------13--------------------------------------|
E------------------------------------------------------|
"alone..." "...until."
E-------------------------------------|----------------|
B-------------------------------------|----------------|
G-------------------------------------|----------------|
D---------15---------12--15--14--15---|-----17---------|
A----13----------13-------------------|----------------|
E-------------------------------------|----------------|

5 - Сайт содержит тексты песен, аккорды, табулатуры #5