Все песни

Все исполнители

Crying

Автор: Bjork

main:

G--------------------------
D--7----------7------------
A----5-6--7-----5-6--7-----
E----------------------5---

in some parts only:
G--------------
D--7-----------
A----5-6--7----
E--------------

5 - Сайт содержит тексты песен, аккорды, табулатуры #5