Все песни

Все исполнители

Big Time Sensuality

Автор: Bjork

verses
G|-------------|
D|--2----------|
A|----00-2-0---|
E|-----------3-|

G|-------------|
D|--2----------|
A|----0-2-0----|
E|----------0--|

chorus ("it takes courage...")
G|--------------------|
D|--------5-5---------|
A|----------------2-2-|
E|--5-5--3-3--5-5-----|

5 - Сайт содержит тексты песен, аккорды, табулатуры #5